ISO-10303-21;
HEADER;
FILE_DESCRIPTION (( 'STEP AP203' ),
    '1' );
FILE_NAME ('BK7-LPBSC-20-532.STEP',
    '2020-12-22T03:13:14',
    ( '' ),
    ( '' ),
    'SwSTEP 2.0',
    'SolidWorks 2020',
    '' );
FILE_SCHEMA (( 'CONFIG_CONTROL_DESIGN' ));
ENDSEC;

DATA;
#1 = CARTESIAN_POINT ( 'NONE',  ( -9.999999999999998224, 10.00000000000000355, 10.00000000000000000 ) ) ;
#2 = VERTEX_POINT ( 'NONE', #71 ) ;
#3 = VERTEX_POINT ( 'NONE', #153 ) ;
#4 = MANIFOLD_SOLID_BREP ( '¾µÏ', #147 ) ;
#5 = ORIENTED_EDGE ( 'NONE', *, *, #84, .F. ) ;
#6 = EDGE_CURVE ( 'NONE', #294, #128, #145, .T. ) ;
#7 = DIRECTION ( 'NONE',  ( 1.000000000000000000, 0.000000000000000000, 0.000000000000000000 ) ) ;
#8 = APPLICATION_CONTEXT ( 'configuration controlled 3d designs of mechanical parts and assemblies' ) ;
#9 = DIRECTION ( 'NONE',  ( 0.7071067811865475727, 0.7071067811865474617, 0.000000000000000000 ) ) ;
#10 = CC_DESIGN_PERSON_AND_ORGANIZATION_ASSIGNMENT ( #260, #15, ( #49 ) ) ;
#11 = CARTESIAN_POINT ( 'NONE',  ( 10.00000000000000178, 9.999999999999998224, -10.00000000000000000 ) ) ;
#12 = APPROVAL_STATUS ( 'not_yet_approved' ) ;
#13 = AXIS2_PLACEMENT_3D ( 'NONE', #23, #120, #68 ) ;
#14 = DIRECTION ( 'NONE',  ( 0.000000000000000000, 0.000000000000000000, 1.000000000000000000 ) ) ;
#15 = PERSON_AND_ORGANIZATION_ROLE ( 'design_supplier' ) ;
#16 = PERSON ( 'UNSPECIFIED', 'UNSPECIFIED', 'UNSPECIFIED', ('UNSPECIFIED'), ('UNSPECIFIED'), ('UNSPECIFIED') ) ;
#17 = LINE ( 'NONE', #64, #309 ) ;
#18 = PERSON_AND_ORGANIZATION ( #16, #82 ) ;
#19 = FACE_OUTER_BOUND ( 'NONE', #218, .T. ) ;
#20 = VECTOR ( 'NONE', #159, 1000.000000000000000 ) ;
#21 = COORDINATED_UNIVERSAL_TIME_OFFSET ( 8, 0, .AHEAD. ) ;
#22 = DIRECTION ( 'NONE',  ( 0.000000000000000000, -0.000000000000000000, 1.000000000000000000 ) ) ;
#23 = CARTESIAN_POINT ( 'NONE',  ( 0.000000000000000000, 0.000000000000000000, 0.000000000000000000 ) ) ;
#24 = CARTESIAN_POINT ( 'NONE',  ( 10.00000000000000178, 9.999999999999998224, -10.00000000000000000 ) ) ;
#25 = MECHANICAL_CONTEXT ( 'NONE', #8, 'mechanical' ) ;
#26 = ADVANCED_FACE ( 'NONE', ( #46 ), #97, .F. ) ;
#27 = ORIENTED_EDGE ( 'NONE', *, *, #56, .F. ) ;
#28 = ORIENTED_EDGE ( 'NONE', *, *, #192, .F. ) ;
#29 = ORIENTED_EDGE ( 'NONE', *, *, #36, .T. ) ;
#30 = ORIENTED_EDGE ( 'NONE', *, *, #192, .T. ) ;
#31 = CC_DESIGN_PERSON_AND_ORGANIZATION_ASSIGNMENT ( #18, #209, ( #49 ) ) ;
#32 = DIRECTION ( 'NONE',  ( 0.000000000000000000, 0.000000000000000000, 1.000000000000000000 ) ) ;
#33 = CARTESIAN_POINT ( 'NONE',  ( -9.999999999999998224, 10.00000000000000355, 10.00000000000000000 ) ) ;
#34 = CARTESIAN_POINT ( 'NONE',  ( 10.00000000000000000, 10.00000000000000000, 10.00000000000000000 ) ) ;
#35 = CARTESIAN_POINT ( 'NONE',  ( 10.00000000000000178, 9.999999999999998224, 10.00000000000000000 ) ) ;
#36 = EDGE_CURVE ( 'NONE', #73, #276, #171, .T. ) ;
#37 = PLANE ( 'NONE',  #158 ) ;
#38 = SECURITY_CLASSIFICATION_LEVEL ( 'unclassified' ) ;
#39 = EDGE_CURVE ( 'NONE', #73, #193, #151, .T. ) ;
#40 = DESIGN_CONTEXT ( 'detailed design', #311, 'design' ) ;
#41 = VECTOR ( 'NONE', #229, 1000.000000000000000 ) ;
#42 = DIRECTION ( 'NONE',  ( 1.000000000000000000, -2.220446049250313081E-16, 0.000000000000000000 ) ) ;
#43 = FACE_OUTER_BOUND ( 'NONE', #174, .T. ) ;
#44 = EDGE_CURVE ( 'NONE', #129, #249, #256, .T. ) ;
#45 = ORIENTED_EDGE ( 'NONE', *, *, #223, .F. ) ;
#46 = FACE_OUTER_BOUND ( 'NONE', #175, .T. ) ;
#47 = ORIENTED_EDGE ( 'NONE', *, *, #56, .T. ) ;
#48 = ORIENTED_EDGE ( 'NONE', *, *, #36, .F. ) ;
#49 = PRODUCT_DEFINITION_FORMATION_WITH_SPECIFIED_SOURCE ( 'ANY', '', #270, .NOT_KNOWN. ) ;
#50 = ORIENTED_EDGE ( 'NONE', *, *, #123, .T. ) ;
#51 = CARTESIAN_POINT ( 'NONE',  ( 10.00000000000000178, -10.00000000000000000, 10.00000000000000000 ) ) ;
#52 = DIRECTION ( 'NONE',  ( 1.000000000000000000, 0.000000000000000000, 0.000000000000000000 ) ) ;
#53 = DATE_AND_TIME ( #189, #136 ) ;
#54 = FACE_OUTER_BOUND ( 'NONE', #130, .T. ) ;
#55 = COORDINATED_UNIVERSAL_TIME_OFFSET ( 8, 0, .AHEAD. ) ;
#56 = EDGE_CURVE ( 'NONE', #276, #99, #228, .T. ) ;
#57 = DIRECTION ( 'NONE',  ( 0.000000000000000000, -0.000000000000000000, 1.000000000000000000 ) ) ;
#58 = APPROVAL_STATUS ( 'not_yet_approved' ) ;
#59 = CC_DESIGN_APPROVAL ( #305, ( #49 ) ) ;
#60 = PERSON_AND_ORGANIZATION_ROLE ( 'classification_officer' ) ;
#61 = ADVANCED_FACE ( 'NONE', ( #200 ), #77, .F. ) ;
#62 = DIRECTION ( 'NONE',  ( 0.000000000000000000, 1.000000000000000000, 0.000000000000000000 ) ) ;
#63 = APPROVAL_STATUS ( 'not_yet_approved' ) ;
#64 = CARTESIAN_POINT ( 'NONE',  ( 10.00000000000000000, 10.00000000000000000, -10.00000000000000000 ) ) ;
#65 = CC_DESIGN_DATE_AND_TIME_ASSIGNMENT ( #141, #206, ( #88 ) ) ;
#66 = CARTESIAN_POINT ( 'NONE',  ( -9.999999999999998224, 10.00000000000000355, -10.00000000000000000 ) ) ;
#67 = LOCAL_TIME ( 11, 13, 14.00000000000000000, #163 ) ;
#68 = DIRECTION ( 'NONE',  ( 1.000000000000000000, 0.000000000000000000, 0.000000000000000000 ) ) ;
#69 = DIRECTION ( 'NONE',  ( 1.000000000000000000, 0.000000000000000000, 0.000000000000000000 ) ) ;
#70 = VECTOR ( 'NONE', #111, 1000.000000000000000 ) ;
#71 = CARTESIAN_POINT ( 'NONE',  ( -9.999999999999998224, -10.00000000000000000, -10.00000000000000000 ) ) ;
#72 = ORIENTED_EDGE ( 'NONE', *, *, #78, .F. ) ;
#73 = VERTEX_POINT ( 'NONE', #280 ) ;
#74 = ORIENTED_EDGE ( 'NONE', *, *, #307, .F. ) ;
#75 = FACE_OUTER_BOUND ( 'NONE', #156, .T. ) ;
#76 = VECTOR ( 'NONE', #92, 1000.000000000000000 ) ;
#77 = PLANE ( 'NONE',  #277 ) ;
#78 = EDGE_CURVE ( 'NONE', #3, #294, #259, .T. ) ;
#79 = FACE_OUTER_BOUND ( 'NONE', #154, .T. ) ;
#80 = CARTESIAN_POINT ( 'NONE',  ( 10.00000000000000000, 10.00000000000000000, 10.00000000000000000 ) ) ;
#81 = VECTOR ( 'NONE', #219, 1000.000000000000000 ) ;
#82 = ORGANIZATION ( 'UNSPECIFIED', 'UNSPECIFIED', '' ) ;
#83 = DIRECTION ( 'NONE',  ( -0.7071067811865475727, -0.7071067811865474617, 0.000000000000000000 ) ) ;
#84 = EDGE_CURVE ( 'NONE', #225, #3, #308, .T. ) ;
#85 = COORDINATED_UNIVERSAL_TIME_OFFSET ( 8, 0, .AHEAD. ) ;
#86 = CARTESIAN_POINT ( 'NONE',  ( -9.999999999999998224, -10.00000000000000000, 10.00000000000000000 ) ) ;
#87 = DATE_TIME_ROLE ( 'classification_date' ) ;
#88 = PRODUCT_DEFINITION ( 'UNKNOWN', '', #49, #40 ) ;
#89 = DIRECTION ( 'NONE',  ( -0.000000000000000000, 0.000000000000000000, -1.000000000000000000 ) ) ;
#90 = CALENDAR_DATE ( 2020, 22, 12 ) ;
#91 = VECTOR ( 'NONE', #95, 1000.000000000000000 ) ;
#92 = DIRECTION ( 'NONE',  ( -0.000000000000000000, -0.000000000000000000, -1.000000000000000000 ) ) ;
#93 = CALENDAR_DATE ( 2020, 22, 12 ) ;
#94 = DIRECTION ( 'NONE',  ( -0.7071067811865474617, 0.7071067811865475727, 0.000000000000000000 ) ) ;
#95 = DIRECTION ( 'NONE',  ( -0.000000000000000000, 0.000000000000000000, -1.000000000000000000 ) ) ;
#96 = VECTOR ( 'NONE', #217, 1000.000000000000000 ) ;
#97 = PLANE ( 'NONE',  #131 ) ;
#98 = ORIENTED_EDGE ( 'NONE', *, *, #316, .F. ) ;
#99 = VERTEX_POINT ( 'NONE', #33 ) ;
#100 = ORIENTED_EDGE ( 'NONE', *, *, #296, .T. ) ;
#101 = APPROVAL ( #58, 'UNSPECIFIED' ) ;
#102 = ORIENTED_EDGE ( 'NONE', *, *, #288, .F. ) ;
#103 = DIRECTION ( 'NONE',  ( 2.220446049250313081E-16, 1.000000000000000000, 0.000000000000000000 ) ) ;
#104 = VECTOR ( 'NONE', #132, 1000.000000000000000 ) ;
#105 = PLANE ( 'NONE',  #267 ) ;
#106 = CARTESIAN_POINT ( 'NONE',  ( -10.00000000000000178, -9.999999999999996447, 10.00000000000000000 ) ) ;
#107 = ADVANCED_FACE ( 'NONE', ( #75 ), #105, .T. ) ;
#108 = LINE ( 'NONE', #312, #304 ) ;
#109 = APPROVAL_DATE_TIME ( #262, #101 ) ;
#110 = VECTOR ( 'NONE', #185, 1000.000000000000000 ) ;
#111 = DIRECTION ( 'NONE',  ( -0.000000000000000000, -0.000000000000000000, -1.000000000000000000 ) ) ;
#112 = PERSON_AND_ORGANIZATION_ROLE ( 'design_owner' ) ;
#113 = LINE ( 'NONE', #315, #258 ) ;
#114 = PERSON_AND_ORGANIZATION ( #16, #82 ) ;
#115 = CARTESIAN_POINT ( 'NONE',  ( 0.000000000000000000, 0.000000000000000000, -10.00000000000000000 ) ) ;
#116 = COORDINATED_UNIVERSAL_TIME_OFFSET ( 8, 0, .AHEAD. ) ;
#117 = ADVANCED_FACE ( 'NONE', ( #79 ), #184, .F. ) ;
#118 = LINE ( 'NONE', #1, #91 ) ;
#119 = LINE ( 'NONE', #164, #76 ) ;
#120 = DIRECTION ( 'NONE',  ( 0.000000000000000000, 0.000000000000000000, 1.000000000000000000 ) ) ;
#121 = AXIS2_PLACEMENT_3D ( 'NONE', #236, #238, #214 ) ;
#122 =( NAMED_UNIT ( * ) PLANE_ANGLE_UNIT ( ) SI_UNIT ( $, .RADIAN. ) );
#123 = EDGE_CURVE ( 'NONE', #2, #294, #179, .T. ) ;
#124 = CARTESIAN_POINT ( 'NONE',  ( 10.00000000000000000, 10.00000000000000000, 10.00000000000000000 ) ) ;
#125 = EDGE_LOOP ( 'NONE', ( #30, #298, #220 ) ) ;
#126 = EDGE_CURVE ( 'NONE', #193, #129, #181, .T. ) ;
#127 = ORIENTED_EDGE ( 'NONE', *, *, #6, .T. ) ;
#128 = VERTEX_POINT ( 'NONE', #11 ) ;
#129 = VERTEX_POINT ( 'NONE', #284 ) ;
#130 = EDGE_LOOP ( 'NONE', ( #148, #98, #47, #247 ) ) ;
#131 = AXIS2_PLACEMENT_3D ( 'NONE', #194, #295, #69 ) ;
#132 = DIRECTION ( 'NONE',  ( -0.7071067811865475727, -0.7071067811865474617, 0.000000000000000000 ) ) ;
#133 = DIRECTION ( 'NONE',  ( 0.000000000000000000, 0.000000000000000000, 1.000000000000000000 ) ) ;
#134 = APPROVAL_ROLE ( '' ) ;
#135 = VECTOR ( 'NONE', #52, 1000.000000000000000 ) ;
#136 = LOCAL_TIME ( 11, 13, 14.00000000000000000, #85 ) ;
#137 = APPROVAL_PERSON_ORGANIZATION ( #114, #275, #167 ) ;
#138 = LINE ( 'NONE', #205, #110 ) ;
#139 = APPROVAL_DATE_TIME ( #264, #275 ) ;
#140 = EDGE_CURVE ( 'NONE', #128, #2, #108, .T. ) ;
#141 = DATE_AND_TIME ( #90, #310 ) ;
#142 = DIRECTION ( 'NONE',  ( 1.000000000000000000, -2.220446049250313081E-16, 0.000000000000000000 ) ) ;
#143 = ADVANCED_FACE ( 'NONE', ( #54 ), #261, .F. ) ;
#144 = CARTESIAN_POINT ( 'NONE',  ( -9.999999999999998224, -10.00000000000000000, 10.00000000000000000 ) ) ;
#145 = LINE ( 'NONE', #24, #96 ) ;
#146 = AXIS2_PLACEMENT_3D ( 'NONE', #289, #207, #14 ) ;
#147 = CLOSED_SHELL ( 'NONE', ( #271, #143, #61, #107, #283 ) ) ;
#148 = ORIENTED_EDGE ( 'NONE', *, *, #44, .F. ) ;
#149 =( LENGTH_UNIT ( ) NAMED_UNIT ( * ) SI_UNIT ( .MILLI., .METRE. ) );
#150 = ORIENTED_EDGE ( 'NONE', *, *, #123, .F. ) ;
#151 = LINE ( 'NONE', #80, #246 ) ;
#152 = EDGE_LOOP ( 'NONE', ( #50, #72, #5, #100 ) ) ;
#153 = CARTESIAN_POINT ( 'NONE',  ( 10.00000000000000178, -10.00000000000000000, 10.00000000000000000 ) ) ;
#154 = EDGE_LOOP ( 'NONE', ( #272, #255, #28, #198 ) ) ;
#155 = LOCAL_TIME ( 11, 13, 14.00000000000000000, #55 ) ;
#156 = EDGE_LOOP ( 'NONE', ( #48, #302, #27 ) ) ;
#157 = DIRECTION ( 'NONE',  ( -0.000000000000000000, 0.000000000000000000, -1.000000000000000000 ) ) ;
#158 = AXIS2_PLACEMENT_3D ( 'NONE', #115, #22, #211 ) ;
#159 = DIRECTION ( 'NONE',  ( 2.220446049250313081E-16, 1.000000000000000000, 0.000000000000000000 ) ) ;
#160 = DIRECTION ( 'NONE',  ( 2.220446049250313081E-16, 1.000000000000000000, 0.000000000000000000 ) ) ;
#161 = CALENDAR_DATE ( 2020, 22, 12 ) ;
#162 = CARTESIAN_POINT ( 'NONE',  ( -9.999999999999998224, -10.00000000000000000, 10.00000000000000000 ) ) ;
#163 = COORDINATED_UNIVERSAL_TIME_OFFSET ( 8, 0, .AHEAD. ) ;
#164 = CARTESIAN_POINT ( 'NONE',  ( 10.00000000000000178, 9.999999999999998224, 10.00000000000000000 ) ) ;
#165 = CALENDAR_DATE ( 2020, 22, 12 ) ;
#166 = CARTESIAN_POINT ( 'NONE',  ( -10.00000000000000178, -9.999999999999996447, 10.00000000000000000 ) ) ;
#167 = APPROVAL_ROLE ( '' ) ;
#168 = CARTESIAN_POINT ( 'NONE',  ( 10.00000000000000178, 9.999999999999998224, 10.00000000000000000 ) ) ;
#169 = CARTESIAN_POINT ( 'NONE',  ( 10.00000000000000178, 9.999999999999998224, 10.00000000000000000 ) ) ;
#170 = CC_DESIGN_PERSON_AND_ORGANIZATION_ASSIGNMENT ( #239, #212, ( #88 ) ) ;
#171 = LINE ( 'NONE', #124, #81 ) ;
#172 = ORIENTED_EDGE ( 'NONE', *, *, #173, .F. ) ;
#173 = EDGE_CURVE ( 'NONE', #249, #193, #17, .T. ) ;
#174 = EDGE_LOOP ( 'NONE', ( #204, #221, #29, #252 ) ) ;
#175 = EDGE_LOOP ( 'NONE', ( #196, #199, #150 ) ) ;
#176 = ADVANCED_FACE ( 'NONE', ( #291 ), #269, .F. ) ;
#177 = DIRECTION ( 'NONE',  ( 0.7071067811865474617, -0.7071067811865475727, 0.000000000000000000 ) ) ;
#178 = CARTESIAN_POINT ( 'NONE',  ( -9.999999999999998224, -10.00000000000000000, 10.00000000000000000 ) ) ;
#179 = LINE ( 'NONE', #281, #135 ) ;
#180 = PRODUCT_RELATED_PRODUCT_CATEGORY ( 'detail', '', ( #270 ) ) ;
#181 = LINE ( 'NONE', #282, #104 ) ;
#182 = AXIS2_PLACEMENT_3D ( 'NONE', #144, #62, #57 ) ;
#183 = ORIENTED_EDGE ( 'NONE', *, *, #173, .T. ) ;
#184 = PLANE ( 'NONE',  #222 ) ;
#185 = DIRECTION ( 'NONE',  ( -0.000000000000000000, 1.000000000000000000, -0.000000000000000000 ) ) ;
#186 = APPLICATION_PROTOCOL_DEFINITION ( 'international standard', 'config_control_design', 1994, #311 ) ;
#187 = DIRECTION ( 'NONE',  ( 0.7071067811865475727, 0.7071067811865474617, 0.000000000000000000 ) ) ;
#188 = LINE ( 'NONE', #86, #70 ) ;
#189 = CALENDAR_DATE ( 2020, 22, 12 ) ;
#190 = CARTESIAN_POINT ( 'NONE',  ( 10.00000000000000000, 10.00000000000000000, 10.00000000000000000 ) ) ;
#191 = CARTESIAN_POINT ( 'NONE',  ( 10.00000000000000178, -10.00000000000000000, -10.00000000000000000 ) ) ;
#192 = EDGE_CURVE ( 'NONE', #197, #225, #285, .T. ) ;
#193 = VERTEX_POINT ( 'NONE', #266 ) ;
#194 = CARTESIAN_POINT ( 'NONE',  ( 0.000000000000000000, 0.000000000000000000, -10.00000000000000000 ) ) ;
#195 = ADVANCED_FACE ( 'NONE', ( #313 ), #216, .F. ) ;
#196 = ORIENTED_EDGE ( 'NONE', *, *, #140, .F. ) ;
#197 = VERTEX_POINT ( 'NONE', #169 ) ;
#198 = ORIENTED_EDGE ( 'NONE', *, *, #288, .T. ) ;
#199 = ORIENTED_EDGE ( 'NONE', *, *, #6, .F. ) ;
#200 = FACE_OUTER_BOUND ( 'NONE', #293, .T. ) ;
#201 = CARTESIAN_POINT ( 'NONE',  ( 0.000000000000000000, 0.000000000000000000, 10.00000000000000000 ) ) ;
#202 = VECTOR ( 'NONE', #263, 1000.000000000000000 ) ;
#203 = DIRECTION ( 'NONE',  ( -2.220446049250313081E-16, -1.000000000000000000, 0.000000000000000000 ) ) ;
#204 = ORIENTED_EDGE ( 'NONE', *, *, #126, .F. ) ;
#205 = CARTESIAN_POINT ( 'NONE',  ( 10.00000000000000178, 9.999999999999998224, 10.00000000000000000 ) ) ;
#206 = DATE_TIME_ROLE ( 'creation_date' ) ;
#207 = DIRECTION ( 'NONE',  ( -1.000000000000000000, 0.000000000000000000, 0.000000000000000000 ) ) ;
#208 = MANIFOLD_SOLID_BREP ( 'Í¹Ì¨-À', #230 ) ;
#209 = PERSON_AND_ORGANIZATION_ROLE ( 'creator' ) ;
#210 = UNCERTAINTY_MEASURE_WITH_UNIT (LENGTH_MEASURE( 1.000000000000000082E-05 ), #149, 'distance_accuracy_value', 'NONE');
#211 = DIRECTION ( 'NONE',  ( 2.220446049250313081E-16, 1.000000000000000000, 0.000000000000000000 ) ) ;
#212 = PERSON_AND_ORGANIZATION_ROLE ( 'creator' ) ;
#213 = AXIS2_PLACEMENT_3D ( 'NONE', #318, #94, #187 ) ;
#214 = DIRECTION ( 'NONE',  ( 1.000000000000000000, 0.000000000000000000, 0.000000000000000000 ) ) ;
#215 = PERSON_AND_ORGANIZATION ( #16, #82 ) ;
#216 = PLANE ( 'NONE',  #182 ) ;
#217 = DIRECTION ( 'NONE',  ( -0.000000000000000000, 1.000000000000000000, -0.000000000000000000 ) ) ;
#218 = EDGE_LOOP ( 'NONE', ( #250, #303, #183 ) ) ;
#219 = DIRECTION ( 'NONE',  ( -0.7071067811865475727, -0.7071067811865474617, 0.000000000000000000 ) ) ;
#220 = ORIENTED_EDGE ( 'NONE', *, *, #307, .T. ) ;
#221 = ORIENTED_EDGE ( 'NONE', *, *, #39, .F. ) ;
#222 = AXIS2_PLACEMENT_3D ( 'NONE', #35, #177, #9 ) ;
#223 = EDGE_CURVE ( 'NONE', #99, #249, #118, .T. ) ;
#224 = CC_DESIGN_SECURITY_CLASSIFICATION ( #299, ( #49 ) ) ;
#225 = VERTEX_POINT ( 'NONE', #162 ) ;
#226 = ORIENTED_EDGE ( 'NONE', *, *, #39, .T. ) ;
#227 = CARTESIAN_POINT ( 'NONE',  ( -10.00000000000000178, -9.999999999999996447, -10.00000000000000000 ) ) ;
#228 = LINE ( 'NONE', #106, #253 ) ;
#229 = DIRECTION ( 'NONE',  ( -0.000000000000000000, -0.000000000000000000, -1.000000000000000000 ) ) ;
#230 = CLOSED_SHELL ( 'NONE', ( #117, #195, #176, #243, #26 ) ) ;
#231 = CARTESIAN_POINT ( 'NONE',  ( -10.00000000000000178, -9.999999999999996447, 10.00000000000000000 ) ) ;
#232 = APPROVAL_PERSON_ORGANIZATION ( #233, #305, #134 ) ;
#233 = PERSON_AND_ORGANIZATION ( #16, #82 ) ;
#234 = FACE_OUTER_BOUND ( 'NONE', #125, .T. ) ;
#235 = SHAPE_DEFINITION_REPRESENTATION ( #292, #273 ) ;
#236 = CARTESIAN_POINT ( 'NONE',  ( 0.000000000000000000, 0.000000000000000000, 10.00000000000000000 ) ) ;
#237 = APPROVAL_DATE_TIME ( #53, #305 ) ;
#238 = DIRECTION ( 'NONE',  ( -0.000000000000000000, 0.000000000000000000, 1.000000000000000000 ) ) ;
#239 = PERSON_AND_ORGANIZATION ( #16, #82 ) ;
#240 =( GEOMETRIC_REPRESENTATION_CONTEXT ( 3 ) GLOBAL_UNCERTAINTY_ASSIGNED_CONTEXT ( ( #210 ) ) GLOBAL_UNIT_ASSIGNED_CONTEXT ( ( #149, #122, #248 ) ) REPRESENTATION_CONTEXT ( 'NONE', 'WORKASPACE' ) );
#241 = CC_DESIGN_DATE_AND_TIME_ASSIGNMENT ( #319, #87, ( #299 ) ) ;
#242 = PLANE ( 'NONE',  #121 ) ;
#243 = ADVANCED_FACE ( 'NONE', ( #234 ), #242, .T. ) ;
#244 = APPLICATION_PROTOCOL_DEFINITION ( 'international standard', 'config_control_design', 1994, #8 ) ;
#245 = CC_DESIGN_APPROVAL ( #101, ( #88 ) ) ;
#246 = VECTOR ( 'NONE', #157, 1000.000000000000000 ) ;
#247 = ORIENTED_EDGE ( 'NONE', *, *, #223, .T. ) ;
#248 =( NAMED_UNIT ( * ) SI_UNIT ( $, .STERADIAN. ) SOLID_ANGLE_UNIT ( ) );
#249 = VERTEX_POINT ( 'NONE', #66 ) ;
#250 = ORIENTED_EDGE ( 'NONE', *, *, #126, .T. ) ;
#251 = EDGE_CURVE ( 'NONE', #99, #73, #265, .T. ) ;
#252 = ORIENTED_EDGE ( 'NONE', *, *, #316, .T. ) ;
#253 = VECTOR ( 'NONE', #103, 1000.000000000000000 ) ;
#254 = CC_DESIGN_APPROVAL ( #275, ( #299 ) ) ;
#255 = ORIENTED_EDGE ( 'NONE', *, *, #296, .F. ) ;
#256 = LINE ( 'NONE', #227, #20 ) ;
#257 = VECTOR ( 'NONE', #7, 1000.000000000000000 ) ;
#258 = VECTOR ( 'NONE', #89, 1000.000000000000000 ) ;
#259 = LINE ( 'NONE', #51, #41 ) ;
#260 = PERSON_AND_ORGANIZATION ( #16, #82 ) ;
#261 = PLANE ( 'NONE',  #286 ) ;
#262 = DATE_AND_TIME ( #93, #268 ) ;
#263 = DIRECTION ( 'NONE',  ( -0.7071067811865475727, -0.7071067811865474617, 0.000000000000000000 ) ) ;
#264 = DATE_AND_TIME ( #165, #67 ) ;
#265 = LINE ( 'NONE', #190, #317 ) ;
#266 = CARTESIAN_POINT ( 'NONE',  ( 10.00000000000000000, 10.00000000000000000, -10.00000000000000000 ) ) ;
#267 = AXIS2_PLACEMENT_3D ( 'NONE', #201, #306, #160 ) ;
#268 = LOCAL_TIME ( 11, 13, 14.00000000000000000, #116 ) ;
#269 = PLANE ( 'NONE',  #146 ) ;
#270 = PRODUCT ( 'BK7-LPBSC-20-532', 'BK7-LPBSC-20-532', '', ( #25 ) ) ;
#271 = ADVANCED_FACE ( 'NONE', ( #43 ), #321, .F. ) ;
#272 = ORIENTED_EDGE ( 'NONE', *, *, #140, .T. ) ;
#273 = ADVANCED_BREP_SHAPE_REPRESENTATION ( 'BK7-LPBSC-20-532', ( #208, #4, #13 ), #240 ) ;
#274 = ORIENTED_EDGE ( 'NONE', *, *, #78, .T. ) ;
#275 = APPROVAL ( #63, 'UNSPECIFIED' ) ;
#276 = VERTEX_POINT ( 'NONE', #166 ) ;
#277 = AXIS2_PLACEMENT_3D ( 'NONE', #34, #203, #133 ) ;
#278 = APPROVAL_PERSON_ORGANIZATION ( #314, #101, #287 ) ;
#279 = DIRECTION ( 'NONE',  ( 1.000000000000000000, -2.220446049250313081E-16, 0.000000000000000000 ) ) ;
#280 = CARTESIAN_POINT ( 'NONE',  ( 10.00000000000000000, 10.00000000000000000, 10.00000000000000000 ) ) ;
#281 = CARTESIAN_POINT ( 'NONE',  ( -9.999999999999998224, -10.00000000000000000, -10.00000000000000000 ) ) ;
#282 = CARTESIAN_POINT ( 'NONE',  ( 10.00000000000000000, 10.00000000000000000, -10.00000000000000000 ) ) ;
#283 = ADVANCED_FACE ( 'NONE', ( #19 ), #37, .F. ) ;
#284 = CARTESIAN_POINT ( 'NONE',  ( -10.00000000000000178, -9.999999999999996447, -10.00000000000000000 ) ) ;
#285 = LINE ( 'NONE', #168, #202 ) ;
#286 = AXIS2_PLACEMENT_3D ( 'NONE', #231, #279, #32 ) ;
#287 = APPROVAL_ROLE ( '' ) ;
#288 = EDGE_CURVE ( 'NONE', #197, #128, #119, .T. ) ;
#289 = CARTESIAN_POINT ( 'NONE',  ( 10.00000000000000178, 9.999999999999998224, 10.00000000000000000 ) ) ;
#290 = PERSON_AND_ORGANIZATION ( #16, #82 ) ;
#291 = FACE_OUTER_BOUND ( 'NONE', #300, .T. ) ;
#292 = PRODUCT_DEFINITION_SHAPE ( 'NONE', 'NONE',  #88 ) ;
#293 = EDGE_LOOP ( 'NONE', ( #172, #45, #297, #226 ) ) ;
#294 = VERTEX_POINT ( 'NONE', #191 ) ;
#295 = DIRECTION ( 'NONE',  ( -0.000000000000000000, 0.000000000000000000, 1.000000000000000000 ) ) ;
#296 = EDGE_CURVE ( 'NONE', #225, #2, #188, .T. ) ;
#297 = ORIENTED_EDGE ( 'NONE', *, *, #251, .T. ) ;
#298 = ORIENTED_EDGE ( 'NONE', *, *, #84, .T. ) ;
#299 = SECURITY_CLASSIFICATION ( '', '', #38 ) ;
#300 = EDGE_LOOP ( 'NONE', ( #127, #102, #74, #274 ) ) ;
#301 = CC_DESIGN_PERSON_AND_ORGANIZATION_ASSIGNMENT ( #215, #112, ( #270 ) ) ;
#302 = ORIENTED_EDGE ( 'NONE', *, *, #251, .F. ) ;
#303 = ORIENTED_EDGE ( 'NONE', *, *, #44, .T. ) ;
#304 = VECTOR ( 'NONE', #83, 1000.000000000000000 ) ;
#305 = APPROVAL ( #12, 'UNSPECIFIED' ) ;
#306 = DIRECTION ( 'NONE',  ( 0.000000000000000000, -0.000000000000000000, 1.000000000000000000 ) ) ;
#307 = EDGE_CURVE ( 'NONE', #3, #197, #138, .T. ) ;
#308 = LINE ( 'NONE', #178, #257 ) ;
#309 = VECTOR ( 'NONE', #142, 1000.000000000000000 ) ;
#310 = LOCAL_TIME ( 11, 13, 14.00000000000000000, #21 ) ;
#311 = APPLICATION_CONTEXT ( 'configuration controlled 3d designs of mechanical parts and assemblies' ) ;
#312 = CARTESIAN_POINT ( 'NONE',  ( 10.00000000000000178, 9.999999999999998224, -10.00000000000000000 ) ) ;
#313 = FACE_OUTER_BOUND ( 'NONE', #152, .T. ) ;
#314 = PERSON_AND_ORGANIZATION ( #16, #82 ) ;
#315 = CARTESIAN_POINT ( 'NONE',  ( -10.00000000000000178, -9.999999999999996447, 10.00000000000000000 ) ) ;
#316 = EDGE_CURVE ( 'NONE', #276, #129, #113, .T. ) ;
#317 = VECTOR ( 'NONE', #42, 1000.000000000000000 ) ;
#318 = CARTESIAN_POINT ( 'NONE',  ( 10.00000000000000000, 10.00000000000000000, 10.00000000000000000 ) ) ;
#319 = DATE_AND_TIME ( #161, #155 ) ;
#320 = CC_DESIGN_PERSON_AND_ORGANIZATION_ASSIGNMENT ( #290, #60, ( #299 ) ) ;
#321 = PLANE ( 'NONE',  #213 ) ;
ENDSEC;
END-ISO-10303-21;
